  0
SECTION
  2
HEADER
  9
$ACADVER
  1
AC1009
  9
$INSBASE
 10
-0.0000000000247233
 20
-2.527691689087532
 30
0.0
  9
$EXTMIN
 10
-0.8284271247304993
 20
-3.045458642029345
 30
0.0
  9
$EXTMAX
 10
1458.517766952991
 20
1550.828427124779
 30
0.0
  9
$LIMMIN
 10
0.0
 20
0.0
  9
$LIMMAX
 10
410.0
 20
287.0
  9
$ORTHOMODE
 70
     0
  9
$REGENMODE
 70
     1
  9
$FILLMODE
 70
     1
  9
$QTEXTMODE
 70
     0
  9
$MIRRTEXT
 70
     1
  9
$DRAGMODE
 70
     2
  9
$LTSCALE
 40
25.0
  9
$OSMODE
 70
     0
  9
$ATTMODE
 70
     1
  9
$TEXTSIZE
 40
3.5
  9
$TRACEWID
 40
1.0
  9
$TEXTSTYLE
  7
STANDARD
  9
$CLAYER
  8
0
  9
$CELTYPE
  6
BYLAYER
  9
$CECOLOR
 62
   256
  9
$DIMSCALE
 40
1.0
  9
$DIMASZ
 40
3.5
  9
$DIMEXO
 40
0.1
  9
$DIMDLI
 40
7.0
  9
$DIMRND
 40
0.0
  9
$DIMDLE
 40
0.0
  9
$DIMEXE
 40
1.8
  9
$DIMTP
 40
0.0
  9
$DIMTM
 40
0.0
  9
$DIMTXT
 40
3.5
  9
$DIMCEN
 40
1.5
  9
$DIMTSZ
 40
0.0
  9
$DIMTOL
 70
     0
  9
$DIMLIM
 70
     0
  9
$DIMTIH
 70
     0
  9
$DIMTOH
 70
     0
  9
$DIMSE1
 70
     0
  9
$DIMSE2
 70
     0
  9
$DIMTAD
 70
     0
  9
$DIMZIN
 70
     0
  9
$DIMBLK
  1

  9
$DIMASO
 70
     1
  9
$DIMSHO
 70
     0
  9
$DIMPOST
  1

  9
$DIMAPOST
  1

  9
$DIMALT
 70
     0
  9
$DIMALTD
 70
     2
  9
$DIMALTF
 40
25.39999999999999
  9
$DIMLFAC
 40
1.0
  9
$DIMTOFL
 70
     0
  9
$DIMTVP
 40
0.0
  9
$DIMTIX
 70
     0
  9
$DIMSOXD
 70
     0
  9
$DIMSAH
 70
     0
  9
$DIMBLK1
  1

  9
$DIMBLK2
  1

  9
$DIMSTYLE
  2
*UNNAMED
  9
$DIMCLRD
 70
     0
  9
$DIMCLRE
 70
     0
  9
$DIMCLRT
 70
     0
  9
$DIMTFAC
 40
1.0
  9
$DIMGAP
 40
0.09
  9
$LUNITS
 70
     2
  9
$LUPREC
 70
     2
  9
$SKETCHINC
 40
1.0
  9
$FILLETRAD
 40
0.0
  9
$AUNITS
 70
     0
  9
$AUPREC
 70
     0
  9
$MENU
  1
acad
  9
$ELEVATION
 40
0.0
  9
$PELEVATION
 40
0.0
  9
$THICKNESS
 40
0.0
  9
$LIMCHECK
 70
     0
  9
$BLIPMODE
 70
     1
  9
$CHAMFERA
 40
0.0
  9
$CHAMFERB
 40
0.0
  9
$SKPOLY
 70
     0
  9
$TDCREATE
 40
2449310.428026504
  9
$TDUPDATE
 40
2449393.435163657
  9
$TDINDWG
 40
0.0000375000
  9
$TDUSRTIMER
 40
0.0000375000
  9
$USRTIMER
 70
     1
  9
$ANGBASE
 50
0.0
  9
$ANGDIR
 70
     0
  9
$PDMODE
 70
     0
  9
$PDSIZE
 40
0.0
  9
$PLINEWID
 40
0.0
  9
$COORDS
 70
     2
  9
$SPLFRAME
 70
     0
  9
$SPLINETYPE
 70
     6
  9
$SPLINESEGS
 70
     8
  9
$ATTDIA
 70
     0
  9
$ATTREQ
 70
     1
  9
$HANDLING
 70
     0
  9
$HANDSEED
  5
19D
  9
$SURFTAB1
 70
     6
  9
$SURFTAB2
 70
     6
  9
$SURFTYPE
 70
     6
  9
$SURFU
 70
     6
  9
$SURFV
 70
     6
  9
$UCSNAME
  2

  9
$UCSORG
 10
0.0
 20
0.0
 30
0.0
  9
$UCSXDIR
 10
1.0
 20
0.0
 30
0.0
  9
$UCSYDIR
 10
0.0
 20
1.0
 30
0.0
  9
$PUCSNAME
  2

  9
$PUCSORG
 10
0.0
 20
0.0
 30
0.0
  9
$PUCSXDIR
 10
1.0
 20
0.0
 30
0.0
  9
$PUCSYDIR
 10
0.0
 20
1.0
 30
0.0
  9
$USERI1
 70
     0
  9
$USERI2
 70
     0
  9
$USERI3
 70
     0
  9
$USERI4
 70
     0
  9
$USERI5
 70
     0
  9
$USERR1
 40
0.0
  9
$USERR2
 40
0.0
  9
$USERR3
 40
0.0
  9
$USERR4
 40
0.0
  9
$USERR5
 40
0.0
  9
$WORLDVIEW
 70
     1
  9
$SHADEDGE
 70
     3
  9
$SHADEDIF
 70
    70
  9
$TILEMODE
 70
     1
  9
$MAXACTVP
 70
    16
  9
$PINSBASE
 10
-0.0000000000247233
 20
-2.527691689087532
 30
0.0
  9
$PLIMCHECK
 70
     0
  9
$PEXTMIN
 10
1.000000000000000E+20
 20
1.000000000000000E+20
 30
1.000000000000000E+20
  9
$PEXTMAX
 10
-1.000000000000000E+20
 20
-1.000000000000000E+20
 30
-1.000000000000000E+20
  9
$PLIMMIN
 10
0.0
 20
0.0
  9
$PLIMMAX
 10
12.0
 20
9.0
  9
$UNITMODE
 70
     0
  9
$VISRETAIN
 70
     0
  9
$PLINEGEN
 70
     0
  9
$PSLTSCALE
 70
     0
  9
$TREEDEPTH
 70
  3020
  9
$DWGCODEPAGE
  3
undefined
  0
ENDSEC
  0
SECTION
  2
TABLES
  0
TABLE
  2
VPORT
 70
     2
  0
VPORT
  2
*ACTIVE
 70
     0
 10
0.0
 20
0.0
 11
1.0
 21
1.0
 12
1071.805261852825
 22
837.658636458274
 13
0.0
 23
0.0
 14
1.0
 24
1.0
 15
10.0
 25
10.0
 16
0.0
 26
0.0
 36
1.0
 17
0.0
 27
0.0
 37
0.0
 40
1680.372656294723
 41
1.275675675675675
 42
50.0
 43
0.0
 44
0.0
 50
0.0
 51
0.0
 71
     0
 72
 20000
 73
     1
 74
     1
 75
     0
 76
     0
 77
     0
 78
     0
  0
ENDTAB
  0
TABLE
  2
LTYPE
 70
     1
  0
LTYPE
  2
CONTINUOUS
 70
    64
  3
Ausgezogene Linie
 72
    65
 73
     0
 40
0.0
  0
ENDTAB
  0
TABLE
  2
LAYER
 70
     4
  0
LAYER
  2
0
 70
     0
 62
     7
  6
CONTINUOUS
  0
LAYER
  2
ITEM_50
 70
    64
 62
     7
  6
CONTINUOUS
  0
LAYER
  2
ITEM_25
 70
    64
 62
     3
  6
CONTINUOUS
  0
LAYER
  2
ITEM_HILFE
 70
    64
 62
     3
  6
CONTINUOUS
  0
ENDTAB
  0
TABLE
  2
STYLE
 70
     1
  0
STYLE
  2
STANDARD
 70
     0
 40
0.0
 41
1.0
 50
0.0
 71
     0
 42
3.5
  3
txt
  4

  0
ENDTAB
  0
TABLE
  2
VIEW
 70
     0
  0
ENDTAB
  0
TABLE
  2
UCS
 70
     0
  0
ENDTAB
  0
TABLE
  2
APPID
 70
     1
  0
APPID
  2
ACAD
 70
    64
  0
ENDTAB
  0
TABLE
  2
DIMSTYLE
 70
     0
  0
ENDTAB
  0
ENDSEC
  0
SECTION
  2
BLOCKS
  0
ENDSEC
  0
SECTION
  2
ENTITIES
  0
POINT
  8
ITEM_HILFE
 10
850.0
 20
650.0
 30
0.0
  0
LINE
  8
ITEM_50
 10
854.0000000000245
 20
740.0000000000247
 30
0.0
 11
1354.000000000024
 21
740.0000000000247
 31
0.0
  0
LINE
  8
ITEM_50
 10
1354.000000000024
 20
740.0000000000247
 30
0.0
 11
1354.000000000024
 21
700.0000000000247
 31
0.0
  0
LINE
  8
ITEM_50
 10
1354.000000000024
 20
700.0000000000247
 30
0.0
 11
854.0000000000245
 21
700.0000000000247
 31
0.0
  0
LINE
  8
ITEM_50
 10
854.0000000000245
 20
700.0000000000247
 30
0.0
 11
854.0000000000245
 21
740.0000000000247
 31
0.0
  0
LINE
  8
ITEM_50
 10
854.0000000000245
 20
724.0000000000247
 30
0.0
 11
1354.000000000024
 21
724.0000000000247
 31
0.0
  0
LINE
  8
ITEM_50
 10
1354.000000000024
 20
716.0000000000247
 30
0.0
 11
854.0000000000245
 21
716.0000000000247
 31
0.0
  0
LINE
  8
ITEM_50
 10
1318.000000000024
 20
694.0000000000247
 30
0.0
 11
1318.000000000024
 21
684.0000000000247
 31
0.0
  0
LINE
  8
ITEM_50
 10
1350.000000000024
 20
694.0000000000247
 30
0.0
 11
1350.000000000024
 21
684.0000000000247
 31
0.0
  0
LINE
  8
ITEM_50
 10
858.0000000000245
 20
694.0000000000247
 30
0.0
 11
858.0000000000245
 21
684.0000000000247
 31
0.0
  0
LINE
  8
ITEM_50
 10
890.0000000000245
 20
694.0000000000247
 30
0.0
 11
890.0000000000245
 21
684.0000000000247
 31
0.0
  0
LINE
  8
ITEM_50
 10
1034.000000000024
 20
1510.000000000024
 30
0.0
 11
954.0000000000245
 21
1510.000000000024
 31
0.0
  0
LINE
  8
ITEM_50
 10
954.0000000000245
 20
1510.000000000024
 30
0.0
 11
954.0000000000245
 21
740.0000000000247
 31
0.0
  0
LINE
  8
ITEM_50
 10
954.0000000000245
 20
740.0000000000247
 30
0.0
 11
1034.000000000024
 21
740.0000000000247
 31
0.0
  0
LINE
  8
ITEM_50
 10
1034.000000000024
 20
740.0000000000247
 30
0.0
 11
1034.000000000024
 21
1510.000000000024
 31
0.0
  0
LINE
  8
ITEM_50
 10
1018.000000000024
 20
1510.000000000024
 30
0.0
 11
1018.000000000024
 21
740.0000000000247
 31
0.0
  0
LINE
  8
ITEM_50
 10
1010.000000000024
 20
740.0000000000247
 30
0.0
 11
1010.000000000024
 21
1510.000000000024
 31
0.0
  0
LINE
  8
ITEM_50
 10
970.0000000000245
 20
1510.000000000024
 30
0.0
 11
970.0000000000245
 21
740.0000000000247
 31
0.0
  0
LINE
  8
ITEM_50
 10
978.0000000000245
 20
740.0000000000247
 30
0.0
 11
978.0000000000245
 21
1510.000000000024
 31
0.0
  0
LINE
  8
ITEM_50
 10
854.0000000000245
 20
1510.000000000024
 30
0.0
 11
1454.000000000024
 21
1510.000000000024
 31
0.0
  0
LINE
  8
ITEM_50
 10
1454.000000000024
 20
1510.000000000024
 30
0.0
 11
1454.000000000024
 21
1550.000000000024
 31
0.0
  0
LINE
  8
ITEM_50
 10
1454.000000000024
 20
1550.000000000024
 30
0.0
 11
854.0000000000245
 21
1550.000000000024
 31
0.0
  0
LINE
  8
ITEM_50
 10
854.0000000000245
 20
1550.000000000024
 30
0.0
 11
854.0000000000245
 21
1510.000000000024
 31
0.0
  0
LINE
  8
ITEM_50
 10
854.0000000000245
 20
1526.000000000024
 30
0.0
 11
1454.000000000024
 21
1526.000000000024
 31
0.0
  0
LINE
  8
ITEM_50
 10
1454.000000000024
 20
1534.000000000024
 30
0.0
 11
854.0000000000245
 21
1534.000000000024
 31
0.0
  0
LINE
  8
ITEM_50
 10
1314.000000000024
 20
682.0000000000247
 30
0.0
 11
1353.965089870177
 21
682.0000000000247
 31
0.0
  0
LINE
  8
ITEM_50
 10
1314.980090449563
 20
656.0000000000247
 30
0.0
 11
1353.019909550485
 21
656.0000000000247
 31
0.0
  0
LINE
  8
ITEM_50
 10
1329.331092722906
 20
682.0000000000247
 30
0.0
 11
1329.445187234436
 21
656.0000000000247
 31
0.0
  0
LINE
  8
ITEM_50
 10
1326.346331352722
 20
682.0000000000247
 30
0.0
 11
1326.533364749167
 21
656.0000000000247
 31
0.0
  0
LINE
  8
ITEM_50
 10
1323.550028705705
 20
682.0000000000247
 30
0.0
 11
1323.805395604115
 21
656.0000000000247
 31
0.0
  0
LINE
  8
ITEM_50
 10
1321.01103903342
 20
682.0000000000247
 30
0.0
 11
1321.328451453244
 21
656.0000000000247
 31
0.0
  0
LINE
  8
ITEM_50
 10
1318.791880688023
 20
682.0000000000247
 30
0.0
 11
1319.163522882053
 21
656.0000000000247
 31
0.0
  0
LINE
  8
ITEM_50
 10
1316.947196712942
 20
682.0000000000247
 30
0.0
 11
1317.36391761695
 21
656.0000000000247
 31
0.0
  0
LINE
  8
ITEM_50
 10
1315.522409349798
 20
682.0000000000247
 30
0.0
 11
1315.973947912111
 21
656.0000000000247
 31
0.0
  0
LINE
  8
ITEM_50
 10
1314.55260159207
 20
682.0000000000247
 30
0.0
 11
1315.027839434713
 21
656.0000000000247
 31
0.0
  0
LINE
  8
ITEM_50
 10
1332.430818085467
 20
682.0000000000247
 30
0.0
 11
1332.46916432655
 21
656.0000000000247
 31
0.0
  0
LINE
  8
ITEM_50
 10
1353.447398407978
 20
682.0000000000247
 30
0.0
 11
1352.972160565335
 21
656.0000000000247
 31
0.0
  0
LINE
  8
ITEM_50
 10
1352.47759065025
 20
682.0000000000247
 30
0.0
 11
1352.026052087937
 21
656.0000000000247
 31
0.0
  0
LINE
  8
ITEM_50
 10
1351.052803287106
 20
682.0000000000247
 30
0.0
 11
1350.636082383098
 21
656.0000000000247
 31
0.0
  0
LINE
  8
ITEM_50
 10
1349.208119312025
 20
682.0000000000247
 30
0.0
 11
1348.836477117996
 21
656.0000000000247
 31
0.0
  0
LINE
  8
ITEM_50
 10
1346.988960966628
 20
682.0000000000247
 30
0.0
 11
1346.671548546804
 21
656.0000000000247
 31
0.0
  0
LINE
  8
ITEM_50
 10
1344.449971294343
 20
682.0000000000247
 30
0.0
 11
1344.194604395933
 21
656.0000000000247
 31
0.0
  0
LINE
  8
ITEM_50
 10
1341.653668647326
 20
682.0000000000247
 30
0.0
 11
1341.466635250881
 21
656.0000000000247
 31
0.0
  0
LINE
  8
ITEM_50
 10
1338.668907277142
 20
682.0000000000247
 30
0.0
 11
1338.554812765612
 21
656.0000000000247
 31
0.0
  0
LINE
  8
ITEM_50
 10
1335.569181914581
 20
682.0000000000247
 30
0.0
 11
1335.530835673498
 21
656.0000000000247
 31
0.0
  0
ARC
  8
ITEM_50
 10
1353.019909550485
 20
656.5000000000247
 30
0.0
 40
0.5
 50
270.0
 51
358.9999999999999
  0
ARC
  8
ITEM_50
 10
1314.980090449563
 20
656.5000000000247
 30
0.0
 40
0.5
 50
181.0
 51
270.0
  0
ARC
  8
ITEM_50
 10
1348.475586411967
 20
654.0000000000247
 30
0.0
 40
4.0
 50
269.9999999999999
 51
358.9999999999999
  0
ARC
  8
ITEM_50
 10
1319.524413588081
 20
654.0000000000247
 30
0.0
 40
4.0
 50
181.0
 51
270.0
  0
LINE
  8
ITEM_50
 10
1319.524413588081
 20
650.0000000000247
 30
0.0
 11
1348.475586411967
 21
650.0000000000247
 31
0.0
  0
LINE
  8
ITEM_50
 10
1352.511105853999
 20
656.0000000000247
 30
0.0
 11
1352.474977192593
 21
653.9301903742757
 31
0.0
  0
LINE
  8
ITEM_50
 10
1354.000000000033
 20
684.0000000000247
 30
0.0
 11
1353.519833398063
 21
656.4912737968061
 31
0.0
  0
LINE
  8
ITEM_50
 10
1315.488894146049
 20
656.0000000000247
 30
0.0
 11
1315.525022807456
 21
653.9301903742757
 31
0.0
  0
LINE
  8
ITEM_50
 10
1314.000000000015
 20
684.0000000000247
 30
0.0
 11
1314.480166601985
 21
656.4912737968061
 31
0.0
  0
LINE
  8
ITEM_50
 10
1314.000000000024
 20
684.0000000000247
 30
0.0
 11
1354.000000000024
 21
684.0000000000247
 31
0.0
  0
LINE
  8
ITEM_50
 10
854.0000000000245
 20
682.0000000000247
 30
0.0
 11
893.9650898701771
 21
682.0000000000247
 31
0.0
  0
LINE
  8
ITEM_50
 10
854.9800904495634
 20
656.0000000000247
 30
0.0
 11
893.0199095504856
 21
656.0000000000247
 31
0.0
  0
LINE
  8
ITEM_50
 10
869.3310927229067
 20
682.0000000000247
 30
0.0
 11
869.4451872344361
 21
656.0000000000247
 31
0.0
  0
LINE
  8
ITEM_50
 10
866.3463313527229
 20
682.0000000000247
 30
0.0
 11
866.5333647491672
 21
656.0000000000247
 31
0.0
  0
LINE
  8
ITEM_50
 10
863.5500287057056
 20
682.0000000000247
 30
0.0
 11
863.8053956041159
 21
656.0000000000247
 31
0.0
  0
LINE
  8
ITEM_50
 10
861.0110390334209
 20
682.0000000000247
 30
0.0
 11
861.3284514532444
 21
656.0000000000247
 31
0.0
  0
LINE
  8
ITEM_50
 10
858.7918806880239
 20
682.0000000000247
 30
0.0
 11
859.163522882053
 21
656.0000000000247
 31
0.0
  0
LINE
  8
ITEM_50
 10
856.9471967129427
 20
682.0000000000247
 30
0.0
 11
857.3639176169502
 21
656.0000000000247
 31
0.0
  0
LINE
  8
ITEM_50
 10
855.5224093497988
 20
682.0000000000247
 30
0.0
 11
855.9739479121112
 21
656.0000000000247
 31
0.0
  0
LINE
  8
ITEM_50
 10
854.5526015920709
 20
682.0000000000247
 30
0.0
 11
855.0278394347137
 21
656.0000000000247
 31
0.0
  0
LINE
  8
ITEM_50
 10
872.4308180854679
 20
682.0000000000247
 30
0.0
 11
872.4691643265508
 21
656.0000000000247
 31
0.0
  0
LINE
  8
ITEM_50
 10
893.4473984079781
 20
682.0000000000247
 30
0.0
 11
892.9721605653353
 21
656.0000000000247
 31
0.0
  0
LINE
  8
ITEM_50
 10
892.4775906502503
 20
682.0000000000247
 30
0.0
 11
892.0260520879379
 21
656.0000000000247
 31
0.0
  0
LINE
  8
ITEM_50
 10
891.0528032871063
 20
682.0000000000247
 30
0.0
 11
890.6360823830989
 21
656.0000000000247
 31
0.0
  0
LINE
  8
ITEM_50
 10
889.2081193120252
 20
682.0000000000247
 30
0.0
 11
888.8364771179961
 21
656.0000000000247
 31
0.0
  0
LINE
  8
ITEM_50
 10
886.9889609666281
 20
682.0000000000247
 30
0.0
 11
886.6715485468046
 21
656.0000000000247
 31
0.0
  0
LINE
  8
ITEM_50
 10
884.4499712943434
 20
682.0000000000247
 30
0.0
 11
884.1946043959333
 21
656.0000000000247
 31
0.0
  0
LINE
  8
ITEM_50
 10
881.6536686473261
 20
682.0000000000247
 30
0.0
 11
881.4666352508819
 21
656.0000000000247
 31
0.0
  0
LINE
  8
ITEM_50
 10
878.6689072771424
 20
682.0000000000247
 30
0.0
 11
878.5548127656129
 21
656.0000000000247
 31
0.0
  0
LINE
  8
ITEM_50
 10
875.5691819145812
 20
682.0000000000247
 30
0.0
 11
875.5308356734983
 21
656.0000000000247
 31
0.0
  0
ARC
  8
ITEM_50
 10
893.0199095504856
 20
656.5000000000247
 30
0.0
 40
0.5
 50
270.0
 51
358.9999999999999
  0
ARC
  8
ITEM_50
 10
854.9800904495634
 20
656.5000000000247
 30
0.0
 40
0.5
 50
181.0
 51
270.0
  0
ARC
  8
ITEM_50
 10
888.4755864119674
 20
654.0000000000247
 30
0.0
 40
4.0
 50
269.9999999999999
 51
358.9999999999999
  0
ARC
  8
ITEM_50
 10
859.5244135880816
 20
654.0000000000247
 30
0.0
 40
4.0
 50
181.0
 51
270.0
  0
LINE
  8
ITEM_50
 10
859.5244135880816
 20
650.0000000000247
 30
0.0
 11
888.4755864119674
 21
650.0000000000247
 31
0.0
  0
LINE
  8
ITEM_50
 10
892.5111058539995
 20
656.0000000000247
 30
0.0
 11
892.474977192593
 21
653.9301903742757
 31
0.0
  0
LINE
  8
ITEM_50
 10
894.0000000000335
 20
684.0000000000247
 30
0.0
 11
893.5198333980638
 21
656.4912737968061
 31
0.0
  0
LINE
  8
ITEM_50
 10
855.4888941460495
 20
656.0000000000247
 30
0.0
 11
855.525022807456
 21
653.9301903742757
 31
0.0
  0
LINE
  8
ITEM_50
 10
854.0000000000155
 20
684.0000000000247
 30
0.0
 11
854.4801666019852
 21
656.4912737968061
 31
0.0
  0
LINE
  8
ITEM_50
 10
854.0000000000245
 20
684.0000000000247
 30
0.0
 11
894.0000000000245
 21
684.0000000000247
 31
0.0
  0
LINE
  8
ITEM_50
 10
854.0000000000245
 20
700.0000000000247
 30
0.0
 11
854.0000000000245
 21
694.0000000000247
 31
0.0
  0
LINE
  8
ITEM_50
 10
894.0000000000245
 20
700.0000000000247
 30
0.0
 11
854.0000000000245
 21
700.0000000000247
 31
0.0
  0
LINE
  8
ITEM_50
 10
894.0000000000245
 20
694.0000000000247
 30
0.0
 11
894.0000000000245
 21
700.0000000000247
 31
0.0
  0
LINE
  8
ITEM_50
 10
854.0000000000245
 20
694.0000000000247
 30
0.0
 11
894.0000000000245
 21
694.0000000000247
 31
0.0
  0
LINE
  8
ITEM_50
 10
852.5000000000245
 20
700.0000000000247
 30
0.0
 11
854.0000000000245
 21
700.0000000000247
 31
0.0
  0
LINE
  8
ITEM_50
 10
854.0000000000245
 20
700.0000000000247
 30
0.0
 11
854.0000000000245
 21
740.0000000000247
 31
0.0
  0
LINE
  8
ITEM_50
 10
854.0000000000245
 20
740.0000000000247
 30
0.0
 11
852.5000000000245
 21
740.0000000000247
 31
0.0
  0
ARC
  8
ITEM_50
 10
852.5000000000245
 20
737.5000000000247
 30
0.0
 40
2.5
 50
90.0
 51
180.0
  0
LINE
  8
ITEM_50
 10
850.0000000000245
 20
737.5000000000247
 30
0.0
 11
850.0000000000245
 21
702.5000000000247
 31
0.0
  0
ARC
  8
ITEM_50
 10
852.5000000000245
 20
702.5000000000247
 30
0.0
 40
2.5
 50
180.0
 51
270.0
  0
LINE
  8
ITEM_50
 10
1314.000000000024
 20
700.0000000000247
 30
0.0
 11
1314.000000000024
 21
694.0000000000247
 31
0.0
  0
LINE
  8
ITEM_50
 10
1354.000000000024
 20
700.0000000000247
 30
0.0
 11
1314.000000000024
 21
700.0000000000247
 31
0.0
  0
LINE
  8
ITEM_50
 10
1354.000000000024
 20
694.0000000000247
 30
0.0
 11
1354.000000000024
 21
700.0000000000247
 31
0.0
  0
LINE
  8
ITEM_50
 10
1314.000000000024
 20
694.0000000000247
 30
0.0
 11
1354.000000000024
 21
694.0000000000247
 31
0.0
  0
POINT
  8
ITEM_HILFE
 10
0.0
 20
650.0
 30
0.0
  0
LINE
  8
ITEM_50
 10
40.00000000002459
 20
1295.000000000024
 30
0.0
 11
760.0000000000245
 21
1295.000000000024
 31
0.0
  0
LINE
  8
ITEM_50
 10
764.0000000000245
 20
694.0000000000245
 30
0.0
 11
764.0000000000245
 21
684.0000000000245
 31
0.0
  0
LINE
  8
ITEM_50
 10
796.0000000000245
 20
694.0000000000245
 30
0.0
 11
796.0000000000245
 21
684.0000000000245
 31
0.0
  0
LINE
  8
ITEM_50
 10
760.0000000000245
 20
682.0000000000245
 30
0.0
 11
799.9650898701771
 21
682.0000000000245
 31
0.0
  0
LINE
  8
ITEM_50
 10
760.9800904495634
 20
656.0000000000245
 30
0.0
 11
799.0199095504856
 21
656.0000000000245
 31
0.0
  0
LINE
  8
ITEM_50
 10
775.3310927229067
 20
682.0000000000245
 30
0.0
 11
775.4451872344361
 21
656.0000000000245
 31
0.0
  0
LINE
  8
ITEM_50
 10
772.3463313527229
 20
682.0000000000245
 30
0.0
 11
772.5333647491672
 21
656.0000000000245
 31
0.0
  0
LINE
  8
ITEM_50
 10
769.5500287057056
 20
682.0000000000245
 30
0.0
 11
769.8053956041159
 21
656.0000000000245
 31
0.0
  0
LINE
  8
ITEM_50
 10
767.0110390334209
 20
682.0000000000245
 30
0.0
 11
767.3284514532444
 21
656.0000000000245
 31
0.0
  0
LINE
  8
ITEM_50
 10
764.7918806880239
 20
682.0000000000245
 30
0.0
 11
765.163522882053
 21
656.0000000000245
 31
0.0
  0
LINE
  8
ITEM_50
 10
762.9471967129427
 20
682.0000000000245
 30
0.0
 11
763.3639176169502
 21
656.0000000000245
 31
0.0
  0
LINE
  8
ITEM_50
 10
761.5224093497988
 20
682.0000000000245
 30
0.0
 11
761.9739479121112
 21
656.0000000000245
 31
0.0
  0
LINE
  8
ITEM_50
 10
760.5526015920709
 20
682.0000000000245
 30
0.0
 11
761.0278394347137
 21
656.0000000000245
 31
0.0
  0
LINE
  8
ITEM_50
 10
778.4308180854679
 20
682.0000000000245
 30
0.0
 11
778.4691643265508
 21
656.0000000000245
 31
0.0
  0
LINE
  8
ITEM_50
 10
799.4473984079781
 20
682.0000000000245
 30
0.0
 11
798.9721605653353
 21
656.0000000000245
 31
0.0
  0
LINE
  8
ITEM_50
 10
798.4775906502503
 20
682.0000000000245
 30
0.0
 11
798.0260520879379
 21
656.0000000000245
 31
0.0
  0
LINE
  8
ITEM_50
 10
797.0528032871063
 20
682.0000000000245
 30
0.0
 11
796.6360823830989
 21
656.0000000000245
 31
0.0
  0
LINE
  8
ITEM_50
 10
795.2081193120252
 20
682.0000000000245
 30
0.0
 11
794.8364771179961
 21
656.0000000000245
 31
0.0
  0
LINE
  8
ITEM_50
 10
792.9889609666281
 20
682.0000000000245
 30
0.0
 11
792.6715485468046
 21
656.0000000000245
 31
0.0
  0
LINE
  8
ITEM_50
 10
790.4499712943434
 20
682.0000000000245
 30
0.0
 11
790.1946043959333
 21
656.0000000000245
 31
0.0
  0
LINE
  8
ITEM_50
 10
787.6536686473261
 20
682.0000000000245
 30
0.0
 11
787.4666352508819
 21
656.0000000000245
 31
0.0
  0
LINE
  8
ITEM_50
 10
784.6689072771424
 20
682.0000000000245
 30
0.0
 11
784.5548127656129
 21
656.0000000000245
 31
0.0
  0
LINE
  8
ITEM_50
 10
781.5691819145812
 20
682.0000000000245
 30
0.0
 11
781.5308356734983
 21
656.0000000000245
 31
0.0
  0
ARC
  8
ITEM_50
 10
799.0199095504856
 20
656.5000000000245
 30
0.0
 40
0.5
 50
270.0
 51
358.9999999999999
  0
ARC
  8
ITEM_50
 10
760.9800904495634
 20
656.5000000000245
 30
0.0
 40
0.5
 50
181.0
 51
270.0
  0
ARC
  8
ITEM_50
 10
794.4755864119674
 20
654.0000000000245
 30
0.0
 40
4.0
 50
269.9999999999999
 51
358.9999999999999
  0
ARC
  8
ITEM_50
 10
765.5244135880816
 20
654.0000000000245
 30
0.0
 40
4.0
 50
181.0
 51
270.0
  0
LINE
  8
ITEM_50
 10
765.5244135880816
 20
650.0000000000245
 30
0.0
 11
794.4755864119674
 21
650.0000000000245
 31
0.0
  0
LINE
  8
ITEM_50
 10
798.5111058539995
 20
656.0000000000245
 30
0.0
 11
798.474977192593
 21
653.9301903742755
 31
0.0
  0
LINE
  8
ITEM_50
 10
800.0000000000335
 20
684.0000000000245
 30
0.0
 11
799.5198333980638
 21
656.4912737968058
 31
0.0
  0
LINE
  8
ITEM_50
 10
761.4888941460495
 20
656.0000000000245
 30
0.0
 11
761.525022807456
 21
653.9301903742755
 31
0.0
  0
LINE
  8
ITEM_50
 10
760.0000000000155
 20
684.0000000000245
 30
0.0
 11
760.4801666019852
 21
656.4912737968058
 31
0.0
  0
LINE
  8
ITEM_50
 10
760.0000000000245
 20
684.0000000000245
 30
0.0
 11
800.0000000000245
 21
684.0000000000245
 31
0.0
  0
ARC
  8
ITEM_50
 10
764.0000000000163
 20
736.0000000000255
 30
0.0
 40
4.0
 50
90.00000000000002
 51
180.0000000000292
  0
LINE
  8
ITEM_50
 10
796.0000000000163
 20
740.0000000000235
 30
0.0
 11
764.0000000000163
 21
740.0000000000255
 31
0.0
  0
ARC
  8
ITEM_50
 10
796.0000000000161
 20
736.0000000000235
 30
0.0
 40
4.0
 50
0.0
 51
89.99999999999633
  0
LINE
  8
ITEM_50
 10
800.0000000000163
 20
704.0000000000235
 30
0.0
 11
800.0000000000161
 21
736.0000000000235
 31
0.0
  0
ARC
  8
ITEM_50
 10
796.0000000000163
 20
704.0000000000235
 30
0.0
 40
4.0
 50
270.0
 51
0.0000000000004071
  0
ARC
  8
ITEM_50
 10
764.0000000000163
 20
704.0000000000235
 30
0.0
 40
4.0
 50
180.0
 51
270.0
  0
LINE
  8
ITEM_25
 10
765.0000000000163
 20
702.5000000000234
 30
0.0
 11
795.0000000000163
 21
702.5000000000234
 31
0.0
  0
LINE
  8
ITEM_25
 10
762.5000000000163
 20
735.0000000000235
 30
0.0
 11
762.5000000000163
 21
705.0000000000234
 31
0.0
  0
LINE
  8
ITEM_50
 10
760.0000000000163
 20
736.0000000000235
 30
0.0
 11
760.0000000000327
 21
704.0000000000235
 31
0.0
  0
LINE
  8
ITEM_50
 10
764.0000000000163
 20
700.0000000000235
 30
0.0
 11
796.0000000000163
 21
700.0000000000235
 31
0.0
  0
LINE
  8
ITEM_25
 10
797.5000000000163
 20
705.0000000000234
 30
0.0
 11
797.5000000000163
 21
735.0000000000235
 31
0.0
  0
LINE
  8
ITEM_25
 10
795.0000000000163
 20
737.5000000000235
 30
0.0
 11
765.0000000000163
 21
737.5000000000235
 31
0.0
  0
LINE
  8
ITEM_50
 10
760.0000000000245
 20
1510.000000000024
 30
0.0
 11
800.0000000000245
 21
1510.000000000024
 31
0.0
  0
LINE
  8
ITEM_50
 10
800.0000000000245
 20
1510.000000000024
 30
0.0
 11
800.0000000000245
 21
740.0000000000245
 31
0.0
  0
LINE
  8
ITEM_50
 10
800.0000000000245
 20
740.0000000000245
 30
0.0
 11
760.0000000000245
 21
740.0000000000245
 31
0.0
  0
LINE
  8
ITEM_50
 10
760.0000000000245
 20
740.0000000000245
 30
0.0
 11
760.0000000000245
 21
1510.000000000024
 31
0.0
  0
LINE
  8
ITEM_50
 10
776.0000000000245
 20
1510.000000000024
 30
0.0
 11
776.0000000000245
 21
740.0000000000245
 31
0.0
  0
LINE
  8
ITEM_50
 10
784.0000000000245
 20
740.0000000000245
 30
0.0
 11
784.0000000000245
 21
1510.000000000024
 31
0.0
  0
ARC
  8
ITEM_50
 10
764.0000000000235
 20
1514.000000000016
 30
0.0
 40
4.0
 50
180.0
 51
270.0000000000293
  0
LINE
  8
ITEM_50
 10
760.0000000000255
 20
1546.000000000016
 30
0.0
 11
760.0000000000235
 21
1514.000000000016
 31
0.0
  0
ARC
  8
ITEM_50
 10
764.0000000000255
 20
1546.000000000016
 30
0.0
 40
4.0
 50
90.0
 51
179.9999999999963
  0
LINE
  8
ITEM_50
 10
796.0000000000255
 20
1550.000000000016
 30
0.0
 11
764.0000000000255
 21
1550.000000000016
 31
0.0
  0
ARC
  8
ITEM_50
 10
796.0000000000255
 20
1546.000000000016
 30
0.0
 40
4.0
 50
0.0
 51
90.00000000000039
  0
ARC
  8
ITEM_50
 10
796.0000000000255
 20
1514.000000000016
 30
0.0
 40
4.0
 50
270.0
 51
0.0
  0
LINE
  8
ITEM_25
 10
797.5000000000256
 20
1515.000000000016
 30
0.0
 11
797.5000000000256
 21
1545.000000000016
 31
0.0
  0
LINE
  8
ITEM_25
 10
765.0000000000255
 20
1512.500000000016
 30
0.0
 11
795.0000000000256
 21
1512.500000000016
 31
0.0
  0
LINE
  8
ITEM_50
 10
764.0000000000255
 20
1510.000000000016
 30
0.0
 11
796.0000000000255
 21
1510.000000000032
 31
0.0
  0
LINE
  8
ITEM_50
 10
800.0000000000255
 20
1514.000000000016
 30
0.0
 11
800.0000000000255
 21
1546.000000000016
 31
0.0
  0
LINE
  8
ITEM_25
 10
795.0000000000256
 20
1547.500000000016
 30
0.0
 11
765.0000000000255
 21
1547.500000000016
 31
0.0
  0
LINE
  8
ITEM_25
 10
762.5000000000255
 20
1545.000000000016
 30
0.0
 11
762.5000000000255
 21
1515.000000000016
 31
0.0
  0
LINE
  8
ITEM_50
 10
40.00000000002459
 20
1510.000000000024
 30
0.0
 11
760.0000000000245
 21
1510.000000000024
 31
0.0
  0
LINE
  8
ITEM_50
 10
760.0000000000245
 20
1510.000000000024
 30
0.0
 11
760.0000000000245
 21
1550.000000000024
 31
0.0
  0
LINE
  8
ITEM_50
 10
760.0000000000245
 20
1550.000000000024
 30
0.0
 11
40.00000000002459
 21
1550.000000000024
 31
0.0
  0
LINE
  8
ITEM_50
 10
40.00000000002459
 20
1550.000000000024
 30
0.0
 11
40.00000000002459
 21
1510.000000000024
 31
0.0
  0
LINE
  8
ITEM_50
 10
40.00000000002459
 20
1526.000000000024
 30
0.0
 11
760.0000000000245
 21
1526.000000000024
 31
0.0
  0
LINE
  8
ITEM_50
 10
760.0000000000245
 20
1534.000000000024
 30
0.0
 11
40.00000000002459
 21
1534.000000000024
 31
0.0
  0
ARC
  8
ITEM_50
 10
36.00000000002562
 20
1546.000000000032
 30
0.0
 40
4.0
 50
0.0
 51
90.00000000002931
  0
LINE
  8
ITEM_50
 10
40.00000000002357
 20
1514.000000000032
 30
0.0
 11
40.00000000002562
 21
1546.000000000032
 31
0.0
  0
ARC
  8
ITEM_50
 10
36.00000000002357
 20
1514.000000000032
 30
0.0
 40
4.0
 50
270.0
 51
359.9999999999963
  0
LINE
  8
ITEM_50
 10
4.000000000023575
 20
1510.000000000032
 30
0.0
 11
36.00000000002357
 21
1510.000000000032
 31
0.0
  0
ARC
  8
ITEM_50
 10
4.000000000023547
 20
1514.000000000032
 30
0.0
 40
4.0
 50
180.0
 51
270.0000000000003
  0
ARC
  8
ITEM_50
 10
4.000000000023547
 20
1546.000000000032
 30
0.0
 40
4.0
 50
90.0
 51
180.0
  0
LINE
  8
ITEM_25
 10
2.50000000002349
 20
1545.000000000032
 30
0.0
 11
2.500000000023519
 21
1515.000000000032
 31
0.0
  0
LINE
  8
ITEM_25
 10
35.00000000002357
 20
1547.500000000032
 30
0.0
 11
5.00000000002349
 21
1547.500000000032
 31
0.0
  0
LINE
  8
ITEM_50
 10
36.00000000002357
 20
1550.000000000032
 30
0.0
 11
4.000000000023547
 21
1550.000000000016
 31
0.0
  0
LINE
  8
ITEM_50
 10
0.0000000000235474
 20
1546.000000000032
 30
0.0
 11
0.0000000000235474
 21
1514.000000000032
 31
0.0
  0
LINE
  8
ITEM_25
 10
5.000000000023519
 20
1512.500000000032
 30
0.0
 11
35.00000000002357
 21
1512.500000000032
 31
0.0
  0
LINE
  8
ITEM_25
 10
37.50000000002357
 20
1515.000000000032
 30
0.0
 11
37.50000000002357
 21
1545.000000000032
 31
0.0
  0
LINE
  8
ITEM_50
 10
40.00000000002459
 20
1510.000000000024
 30
0.0
 11
0.000000000024599
 21
1510.000000000024
 31
0.0
  0
LINE
  8
ITEM_50
 10
0.000000000024599
 20
1510.000000000024
 30
0.0
 11
0.000000000024599
 21
740.0000000000245
 31
0.0
  0
LINE
  8
ITEM_50
 10
0.000000000024599
 20
740.0000000000245
 30
0.0
 11
40.00000000002459
 21
740.0000000000245
 31
0.0
  0
LINE
  8
ITEM_50
 10
40.00000000002459
 20
740.0000000000245
 30
0.0
 11
40.00000000002459
 21
1510.000000000024
 31
0.0
  0
LINE
  8
ITEM_50
 10
24.00000000002459
 20
1510.000000000024
 30
0.0
 11
24.00000000002459
 21
740.0000000000245
 31
0.0
  0
LINE
  8
ITEM_50
 10
16.00000000002459
 20
740.0000000000245
 30
0.0
 11
16.00000000002459
 21
1510.000000000024
 31
0.0
  0
LINE
  8
ITEM_50
 10
40.00000000002459
 20
740.0000000000245
 30
0.0
 11
760.0000000000245
 21
740.0000000000245
 31
0.0
  0
LINE
  8
ITEM_50
 10
760.0000000000245
 20
740.0000000000245
 30
0.0
 11
760.0000000000245
 21
700.0000000000245
 31
0.0
  0
LINE
  8
ITEM_50
 10
760.0000000000245
 20
700.0000000000245
 30
0.0
 11
40.00000000002459
 21
700.0000000000245
 31
0.0
  0
LINE
  8
ITEM_50
 10
40.00000000002459
 20
700.0000000000245
 30
0.0
 11
40.00000000002459
 21
740.0000000000245
 31
0.0
  0
LINE
  8
ITEM_50
 10
40.00000000002459
 20
724.0000000000245
 30
0.0
 11
760.0000000000245
 21
724.0000000000245
 31
0.0
  0
LINE
  8
ITEM_50
 10
760.0000000000245
 20
716.0000000000245
 30
0.0
 11
40.00000000002459
 21
716.0000000000245
 31
0.0
  0
ARC
  8
ITEM_50
 10
4.000000000016413
 20
736.0000000000255
 30
0.0
 40
4.0
 50
90.00000000000002
 51
180.0000000000292
  0
LINE
  8
ITEM_50
 10
36.00000000001644
 20
740.0000000000235
 30
0.0
 11
4.000000000016413
 21
740.0000000000255
 31
0.0
  0
ARC
  8
ITEM_50
 10
36.00000000001618
 20
736.0000000000235
 30
0.0
 40
4.0
 50
0.0
 51
89.99999999999633
  0
LINE
  8
ITEM_50
 10
40.00000000001644
 20
704.0000000000235
 30
0.0
 11
40.00000000001618
 21
736.0000000000235
 31
0.0
  0
ARC
  8
ITEM_50
 10
36.00000000001644
 20
704.0000000000235
 30
0.0
 40
4.0
 50
270.0
 51
0.0000000000004071
  0
ARC
  8
ITEM_50
 10
4.000000000016413
 20
704.0000000000235
 30
0.0
 40
4.0
 50
180.0
 51
270.0
  0
LINE
  8
ITEM_25
 10
5.000000000016413
 20
702.5000000000234
 30
0.0
 11
35.00000000001644
 21
702.5000000000234
 31
0.0
  0
LINE
  8
ITEM_25
 10
2.500000000016413
 20
735.0000000000235
 30
0.0
 11
2.500000000016413
 21
705.0000000000234
 31
0.0
  0
LINE
  8
ITEM_50
 10
0.0000000000164135
 20
736.0000000000235
 30
0.0
 11
0.0000000000327844
 21
704.0000000000235
 31
0.0
  0
LINE
  8
ITEM_50
 10
4.000000000016413
 20
700.0000000000235
 30
0.0
 11
36.00000000001644
 21
700.0000000000235
 31
0.0
  0
LINE
  8
ITEM_25
 10
37.50000000001641
 20
705.0000000000234
 30
0.0
 11
37.50000000001644
 21
735.0000000000235
 31
0.0
  0
LINE
  8
ITEM_25
 10
35.00000000001644
 20
737.5000000000235
 30
0.0
 11
5.000000000016413
 21
737.5000000000235
 31
0.0
  0
LINE
  8
ITEM_50
 10
4.000000000024599
 20
694.0000000000245
 30
0.0
 11
4.000000000024599
 21
684.0000000000245
 31
0.0
  0
LINE
  8
ITEM_50
 10
36.00000000002459
 20
694.0000000000245
 30
0.0
 11
36.00000000002459
 21
684.0000000000245
 31
0.0
  0
LINE
  8
ITEM_50
 10
0.000000000024599
 20
682.0000000000245
 30
0.0
 11
39.96508987017718
 21
682.0000000000245
 31
0.0
  0
LINE
  8
ITEM_50
 10
0.9800904495635478
 20
656.0000000000245
 30
0.0
 11
39.01990955048565
 21
656.0000000000245
 31
0.0
  0
LINE
  8
ITEM_50
 10
15.33109272290674
 20
682.0000000000245
 30
0.0
 11
15.4451872344362
 21
656.0000000000245
 31
0.0
  0
LINE
  8
ITEM_50
 10
12.34633135272299
 20
682.0000000000245
 30
0.0
 11
12.53336474916729
 21
656.0000000000245
 31
0.0
  0
LINE
  8
ITEM_50
 10
9.550028705705742
 20
682.0000000000245
 30
0.0
 11
9.805395604115929
 21
656.0000000000245
 31
0.0
  0
LINE
  8
ITEM_50
 10
7.011039033421028
 20
682.0000000000245
 30
0.0
 11
7.328451453244539
 21
656.0000000000245
 31
0.0
  0
LINE
  8
ITEM_50
 10
4.791880688024022
 20
682.0000000000245
 30
0.0
 11
5.163522882053044
 21
656.0000000000245
 31
0.0
  0
LINE
  8
ITEM_50
 10
2.947196712942783
 20
682.0000000000245
 30
0.0
 11
3.363917616950303
 21
656.0000000000245
 31
0.0
  0
LINE
  8
ITEM_50
 10
1.522409349798849
 20
682.0000000000245
 30
0.0
 11
1.973947912111285
 21
656.0000000000245
 31
0.0
  0
LINE
  8
ITEM_50
 10
0.5526015920709852
 20
682.0000000000245
 30
0.0
 11
1.027839434713868
 21
656.0000000000245
 31
0.0
  0
LINE
  8
ITEM_50
 10
18.430818085468
 20
682.0000000000245
 30
0.0
 11
18.46916432655088
 21
656.0000000000245
 31
0.0
  0
LINE
  8
ITEM_50
 10
39.44739840797826
 20
682.0000000000245
 30
0.0
 11
38.97216056533538
 21
656.0000000000245
 31
0.0
  0
LINE
  8
ITEM_50
 10
38.4775906502504
 20
682.0000000000245
 30
0.0
 11
38.02605208793796
 21
656.0000000000245
 31
0.0
  0
LINE
  8
ITEM_50
 10
37.05280328710647
 20
682.0000000000245
 30
0.0
 11
36.63608238309895
 21
656.0000000000245
 31
0.0
  0
LINE
  8
ITEM_50
 10
35.20811931202523
 20
682.0000000000245
 30
0.0
 11
34.83647711799621
 21
656.0000000000245
 31
0.0
  0
LINE
  8
ITEM_50
 10
32.98896096662822
 20
682.0000000000245
 30
0.0
 11
32.67154854680471
 21
656.0000000000245
 31
0.0
  0
LINE
  8
ITEM_50
 10
30.44997129434351
 20
682.0000000000245
 30
0.0
 11
30.19460439593332
 21
656.0000000000245
 31
0.0
  0
LINE
  8
ITEM_50
 10
27.65366864732625
 20
682.0000000000245
 30
0.0
 11
27.46663525088196
 21
656.0000000000245
 31
0.0
  0
LINE
  8
ITEM_50
 10
24.6689072771425
 20
682.0000000000245
 30
0.0
 11
24.55481276561305
 21
656.0000000000245
 31
0.0
  0
LINE
  8
ITEM_50
 10
21.56918191458125
 20
682.0000000000245
 30
0.0
 11
21.53083567349837
 21
656.0000000000245
 31
0.0
  0
ARC
  8
ITEM_50
 10
39.01990955048565
 20
656.5000000000245
 30
0.0
 40
0.5
 50
270.0
 51
358.9999999999999
  0
ARC
  8
ITEM_50
 10
0.9800904495635478
 20
656.5000000000245
 30
0.0
 40
0.5
 50
181.0
 51
270.0
  0
ARC
  8
ITEM_50
 10
34.47558641196754
 20
654.0000000000245
 30
0.0
 40
4.0
 50
269.9999999999999
 51
358.9999999999999
  0
ARC
  8
ITEM_50
 10
5.524413588081657
 20
654.0000000000245
 30
0.0
 40
4.0
 50
181.0
 51
270.0
  0
LINE
  8
ITEM_50
 10
5.524413588081657
 20
650.0000000000245
 30
0.0
 11
34.47558641196754
 21
650.0000000000245
 31
0.0
  0
LINE
  8
ITEM_50
 10
38.5111058539996
 20
656.0000000000245
 30
0.0
 11
38.4749771925931
 21
653.9301903742755
 31
0.0
  0
LINE
  8
ITEM_50
 10
40.0000000000336
 20
684.0000000000245
 30
0.0
 11
39.51983339806385
 21
656.4912737968058
 31
0.0
  0
LINE
  8
ITEM_50
 10
1.488894146049588
 20
656.0000000000245
 30
0.0
 11
1.525022807456096
 21
653.9301903742755
 31
0.0
  0
LINE
  8
ITEM_50
 10
0.0000000000155893
 20
684.0000000000245
 30
0.0
 11
0.4801666019853457
 21
656.4912737968058
 31
0.0
  0
LINE
  8
ITEM_50
 10
0.000000000024599
 20
684.0000000000245
 30
0.0
 11
40.00000000002459
 21
684.0000000000245
 31
0.0
  0
POINT
  8
ITEM_HILFE
 10
0.0
 20
601.472308310937
 30
0.0
  0
POINT
  8
ITEM_HILFE
 10
-0.0000000000247233
 20
-2.527691689087532
 30
0.0
  0
LINE
  8
ITEM_50
 10
40.0
 20
601.472308310937
 30
0.0
 11
760.0
 21
601.472308310937
 31
0.0
  0
LINE
  8
ITEM_50
 10
760.0
 20
601.472308310937
 30
0.0
 11
760.0
 21
561.472308310937
 31
0.0
  0
LINE
  8
ITEM_50
 10
760.0
 20
561.472308310937
 30
0.0
 11
40.0
 21
561.472308310937
 31
0.0
  0
LINE
  8
ITEM_50
 10
40.0
 20
561.472308310937
 30
0.0
 11
40.0
 21
601.472308310937
 31
0.0
  0
LINE
  8
ITEM_50
 10
40.0
 20
585.472308310937
 30
0.0
 11
760.0
 21
585.472308310937
 31
0.0
  0
LINE
  8
ITEM_50
 10
760.0
 20
577.472308310937
 30
0.0
 11
40.0
 21
577.472308310937
 31
0.0
  0
LINE
  8
ITEM_50
 10
0.0
 20
601.472308310937
 30
0.0
 11
40.0
 21
601.472308310937
 31
0.0
  0
LINE
  8
ITEM_50
 10
40.0
 20
601.472308310937
 30
0.0
 11
40.0
 21
1.472308310937023
 31
0.0
  0
LINE
  8
ITEM_50
 10
40.0
 20
1.472308310937023
 30
0.0
 11
0.0
 21
1.472308310937023
 31
0.0
  0
LINE
  8
ITEM_50
 10
0.0
 20
1.472308310937023
 30
0.0
 11
0.0
 21
601.472308310937
 31
0.0
  0
LINE
  8
ITEM_50
 10
16.0
 20
601.472308310937
 30
0.0
 11
16.0
 21
1.472308310937023
 31
0.0
  0
LINE
  8
ITEM_50
 10
24.0
 20
1.472308310937023
 30
0.0
 11
24.0
 21
601.472308310937
 31
0.0
  0
LINE
  8
ITEM_50
 10
40.0
 20
1.472308310937023
 30
0.0
 11
760.0
 21
1.472308310937023
 31
0.0
  0
LINE
  8
ITEM_50
 10
760.0
 20
1.472308310937023
 30
0.0
 11
760.0
 21
41.47230831093702
 31
0.0
  0
LINE
  8
ITEM_50
 10
760.0
 20
41.47230831093702
 30
0.0
 11
40.0
 21
41.47230831093702
 31
0.0
  0
LINE
  8
ITEM_50
 10
40.0
 20
41.47230831093702
 30
0.0
 11
40.0
 21
1.472308310937023
 31
0.0
  0
LINE
  8
ITEM_50
 10
40.0
 20
17.47230831093702
 30
0.0
 11
760.0
 21
17.47230831093702
 31
0.0
  0
LINE
  8
ITEM_50
 10
760.0
 20
25.47230831093702
 30
0.0
 11
40.0
 21
25.47230831093702
 31
0.0
  0
LINE
  8
ITEM_50
 10
760.0
 20
601.472308310937
 30
0.0
 11
800.0
 21
601.472308310937
 31
0.0
  0
LINE
  8
ITEM_50
 10
800.0
 20
601.472308310937
 30
0.0
 11
800.0
 21
1.472308310937023
 31
0.0
  0
LINE
  8
ITEM_50
 10
800.0
 20
1.472308310937023
 30
0.0
 11
760.0
 21
1.472308310937023
 31
0.0
  0
LINE
  8
ITEM_50
 10
760.0
 20
1.472308310937023
 30
0.0
 11
760.0
 21
601.472308310937
 31
0.0
  0
LINE
  8
ITEM_50
 10
776.0
 20
601.472308310937
 30
0.0
 11
776.0
 21
1.472308310937023
 31
0.0
  0
LINE
  8
ITEM_50
 10
784.0
 20
1.472308310937023
 30
0.0
 11
784.0
 21
601.472308310937
 31
0.0
  0
LINE
  8
ITEM_50
 10
0.000000000024599
 20
700.0000000000245
 30
0.0
 11
0.000000000024599
 21
694.0000000000245
 31
0.0
  0
LINE
  8
ITEM_50
 10
40.00000000002459
 20
700.0000000000245
 30
0.0
 11
0.000000000024599
 21
700.0000000000245
 31
0.0
  0
LINE
  8
ITEM_50
 10
40.00000000002459
 20
694.0000000000245
 30
0.0
 11
40.00000000002459
 21
700.0000000000245
 31
0.0
  0
LINE
  8
ITEM_50
 10
0.000000000024599
 20
694.0000000000245
 30
0.0
 11
40.00000000002459
 21
694.0000000000245
 31
0.0
  0
LINE
  8
ITEM_50
 10
760.0
 20
602.9723083109369
 30
0.0
 11
760.0
 21
601.4723083109369
 31
0.0
  0
LINE
  8
ITEM_50
 10
760.0
 20
601.4723083109369
 30
0.0
 11
800.0
 21
601.4723083109369
 31
0.0
  0
LINE
  8
ITEM_50
 10
800.0
 20
601.4723083109369
 30
0.0
 11
800.0
 21
602.9723083109369
 31
0.0
  0
ARC
  8
ITEM_50
 10
797.5
 20
602.9723083109367
 30
0.0
 40
2.5
 50
0.0
 51
90.0
  0
LINE
  8
ITEM_50
 10
797.5
 20
605.4723083109369
 30
0.0
 11
762.5
 21
605.4723083109369
 31
0.0
  0
ARC
  8
ITEM_50
 10
762.5
 20
602.9723083109369
 30
0.0
 40
2.5
 50
90.0
 51
180.0
  0
LINE
  8
ITEM_50
 10
-0.0000000000000284
 20
602.9723083109369
 30
0.0
 11
-0.0000000000000284
 21
601.4723083109369
 31
0.0
  0
LINE
  8
ITEM_50
 10
-0.0000000000000284
 20
601.4723083109369
 30
0.0
 11
39.99999999999997
 21
601.4723083109369
 31
0.0
  0
LINE
  8
ITEM_50
 10
39.99999999999997
 20
601.4723083109369
 30
0.0
 11
39.99999999999997
 21
602.9723083109369
 31
0.0
  0
ARC
  8
ITEM_50
 10
37.49999999999997
 20
602.9723083109367
 30
0.0
 40
2.5
 50
0.0
 51
90.0
  0
LINE
  8
ITEM_50
 10
37.49999999999997
 20
605.4723083109369
 30
0.0
 11
2.499999999999971
 21
605.4723083109369
 31
0.0
  0
ARC
  8
ITEM_50
 10
2.499999999999971
 20
602.9723083109369
 30
0.0
 40
2.5
 50
90.0
 51
180.0
  0
LINE
  8
ITEM_50
 10
40.00000000000007
 20
-0.0276916890629764
 30
0.0
 11
40.00000000000007
 21
1.472308310937023
 31
0.0
  0
LINE
  8
ITEM_50
 10
40.00000000000007
 20
1.472308310937023
 30
0.0
 11
0.0000000000000711
 21
1.472308310937023
 31
0.0
  0
LINE
  8
ITEM_50
 10
0.0000000000000711
 20
1.472308310937023
 30
0.0
 11
0.0000000000000711
 21
-0.0276916890629764
 31
0.0
  0
ARC
  8
ITEM_50
 10
2.500000000000071
 20
-0.0276916890629195
 30
0.0
 40
2.5
 50
180.0
 51
270.0
  0
LINE
  8
ITEM_50
 10
2.500000000000071
 20
-2.527691689062976
 30
0.0
 11
37.50000000000007
 21
-2.527691689062976
 31
0.0
  0
ARC
  8
ITEM_50
 10
37.50000000000007
 20
-0.0276916890629764
 30
0.0
 40
2.5
 50
270.0
 51
0.0
  0
LINE
  8
ITEM_50
 10
800.0
 20
-0.0276916890629764
 30
0.0
 11
800.0
 21
1.472308310937023
 31
0.0
  0
LINE
  8
ITEM_50
 10
800.0
 20
1.472308310937023
 30
0.0
 11
760.0
 21
1.472308310937023
 31
0.0
  0
LINE
  8
ITEM_50
 10
760.0
 20
1.472308310937023
 30
0.0
 11
760.0
 21
-0.0276916890629764
 31
0.0
  0
ARC
  8
ITEM_50
 10
762.5
 20
-0.0276916890629195
 30
0.0
 40
2.5
 50
180.0
 51
270.0
  0
LINE
  8
ITEM_50
 10
762.5
 20
-2.527691689062976
 30
0.0
 11
797.5
 21
-2.527691689062976
 31
0.0
  0
ARC
  8
ITEM_50
 10
797.5
 20
-0.0276916890629764
 30
0.0
 40
2.5
 50
270.0
 51
0.0
  0
LINE
  8
ITEM_50
 10
1355.500000000024
 20
740.000000000025
 30
0.0
 11
1354.000000000024
 21
740.000000000025
 31
0.0
  0
LINE
  8
ITEM_50
 10
1354.000000000024
 20
740.000000000025
 30
0.0
 11
1354.000000000024
 21
700.000000000025
 31
0.0
  0
LINE
  8
ITEM_50
 10
1354.000000000024
 20
700.000000000025
 30
0.0
 11
1355.500000000024
 21
700.000000000025
 31
0.0
  0
ARC
  8
ITEM_50
 10
1355.500000000024
 20
702.500000000025
 30
0.0
 40
2.5
 50
270.0
 51
0.0
  0
LINE
  8
ITEM_50
 10
1358.000000000024
 20
702.500000000025
 30
0.0
 11
1358.000000000024
 21
737.500000000025
 31
0.0
  0
ARC
  8
ITEM_50
 10
1355.500000000024
 20
737.500000000025
 30
0.0
 40
2.5
 50
0.0
 51
89.99999999999998
  0
LINE
  8
ITEM_50
 10
852.5000000000245
 20
1510.000000000024
 30
0.0
 11
854.0000000000245
 21
1510.000000000024
 31
0.0
  0
LINE
  8
ITEM_50
 10
854.0000000000245
 20
1510.000000000024
 30
0.0
 11
854.0000000000245
 21
1550.000000000024
 31
0.0
  0
LINE
  8
ITEM_50
 10
854.0000000000245
 20
1550.000000000024
 30
0.0
 11
852.5000000000245
 21
1550.000000000024
 31
0.0
  0
ARC
  8
ITEM_50
 10
852.5000000000245
 20
1547.500000000024
 30
0.0
 40
2.5
 50
90.0
 51
180.0
  0
LINE
  8
ITEM_50
 10
850.0000000000245
 20
1547.500000000024
 30
0.0
 11
850.0000000000245
 21
1512.500000000024
 31
0.0
  0
ARC
  8
ITEM_50
 10
852.5000000000245
 20
1512.500000000024
 30
0.0
 40
2.5
 50
180.0
 51
270.0
  0
LINE
  8
ITEM_50
 10
1455.500000000024
 20
1550.000000000024
 30
0.0
 11
1454.000000000024
 21
1550.000000000024
 31
0.0
  0
LINE
  8
ITEM_50
 10
1454.000000000024
 20
1550.000000000024
 30
0.0
 11
1454.000000000024
 21
1510.000000000024
 31
0.0
  0
LINE
  8
ITEM_50
 10
1454.000000000024
 20
1510.000000000024
 30
0.0
 11
1455.500000000024
 21
1510.000000000024
 31
0.0
  0
ARC
  8
ITEM_50
 10
1455.500000000024
 20
1512.500000000024
 30
0.0
 40
2.5
 50
270.0
 51
0.0
  0
LINE
  8
ITEM_50
 10
1458.000000000024
 20
1512.500000000024
 30
0.0
 11
1458.000000000024
 21
1547.500000000024
 31
0.0
  0
ARC
  8
ITEM_50
 10
1455.500000000024
 20
1547.500000000024
 30
0.0
 40
2.5
 50
0.0
 51
89.99999999999998
  0
LINE
  8
ITEM_50
 10
41.5
 20
42.97230831093702
 30
0.0
 11
758.5
 21
42.97230831093702
 31
0.0
  0
LINE
  8
ITEM_50
 10
758.5
 20
42.97230831093702
 30
0.0
 11
758.5
 21
559.972308310937
 31
0.0
  0
LINE
  8
ITEM_50
 10
758.5
 20
559.972308310937
 30
0.0
 11
41.5
 21
559.972308310937
 31
0.0
  0
LINE
  8
ITEM_50
 10
41.5
 20
559.972308310937
 30
0.0
 11
41.5
 21
42.97230831093702
 31
0.0
  0
LINE
  8
ITEM_50
 10
760.0000000000245
 20
700.0000000000245
 30
0.0
 11
760.0000000000245
 21
694.0000000000245
 31
0.0
  0
LINE
  8
ITEM_50
 10
800.0000000000245
 20
700.0000000000245
 30
0.0
 11
760.0000000000245
 21
700.0000000000245
 31
0.0
  0
LINE
  8
ITEM_50
 10
800.0000000000245
 20
694.0000000000245
 30
0.0
 11
800.0000000000245
 21
700.0000000000245
 31
0.0
  0
LINE
  8
ITEM_50
 10
760.0000000000245
 20
694.0000000000245
 30
0.0
 11
800.0000000000245
 21
694.0000000000245
 31
0.0
  0
ENDSEC
  0
EOF
